ISO-10303-21;
HEADER;
FILE_DESCRIPTION (( 'STEP AP214' ),
    '1' );
FILE_NAME ('STARK_807 306_B.STEP',
    '2020-02-03T07:05:44',
    ( '' ),
    ( '' ),
    'SwSTEP 2.0',
    'SolidWorks 2019',
    '' );
FILE_SCHEMA (( 'AUTOMOTIVE_DESIGN' ));
ENDSEC;

DATA;
#1 = EDGE_LOOP ( 'NONE', ( #2 ) ) ;
#2 = ORIENTED_EDGE ( 'NONE', *, *, #70, .T. ) ;
#3 = SURFACE_SIDE_STYLE ('',( #107 ) ) ;
#4 = AXIS2_PLACEMENT_3D ( 'NONE', #33, #18, #51 ) ;
#5 = FILL_AREA_STYLE_COLOUR ( '', #19 ) ;
#6 = DIRECTION ( 'NONE',  ( 0.0000000000000000000, 1.000000000000000000, 0.0000000000000000000 ) ) ;
#7 = DIRECTION ( 'NONE',  ( 0.0000000000000000000, 0.0000000000000000000, -1.000000000000000000 ) ) ;
#8 = CARTESIAN_POINT ( 'NONE',  ( -17.50000000000000000, 36.00000000000000000, 0.0000000000000000000 ) ) ;
#9 =( GEOMETRIC_REPRESENTATION_CONTEXT ( 3 ) GLOBAL_UNCERTAINTY_ASSIGNED_CONTEXT ( ( #143 ) ) GLOBAL_UNIT_ASSIGNED_CONTEXT ( ( #61, #153, #122 ) ) REPRESENTATION_CONTEXT ( 'NONE', 'WORKASPACE' ) );
#10 = COLOUR_RGB ( '',0.6470588235294117974, 0.6196078431372549211, 0.5803921568627450345 ) ;
#11 = ORIENTED_EDGE ( 'NONE', *, *, #21, .F. ) ;
#12 = ADVANCED_FACE ( 'NONE', ( #75, #161 ), #168, .F. ) ;
#13 = ADVANCED_BREP_SHAPE_REPRESENTATION ( 'STARK_807 306_B', ( #40, #110 ), #35 ) ;
#14 = ORIENTED_EDGE ( 'NONE', *, *, #55, .F. ) ;
#15 = DIRECTION ( 'NONE',  ( 0.0000000000000000000, -1.000000000000000000, 0.0000000000000000000 ) ) ;
#16 = CONICAL_SURFACE ( 'NONE', #71, 17.50000000000000000, 0.2617993877991434681 ) ;
#17 = DIRECTION ( 'NONE',  ( 0.0000000000000000000, 0.0000000000000000000, -1.000000000000000000 ) ) ;
#18 = DIRECTION ( 'NONE',  ( 0.0000000000000000000, -1.000000000000000000, 0.0000000000000000000 ) ) ;
#19 = COLOUR_RGB ( '',0.6470588235294117974, 0.6196078431372549211, 0.5803921568627450345 ) ;
#20 = CARTESIAN_POINT ( 'NONE',  ( -13.00000000000000000, -6.882100777781699869E-16, 0.0000000000000000000 ) ) ;
#21 = EDGE_CURVE ( 'NONE', #171, #171, #94, .T. ) ;
#22 = PRODUCT ( 'STARK_807 306_B', 'STARK_807 306_B', '', ( #163 ) ) ;
#23 = ORIENTED_EDGE ( 'NONE', *, *, #166, .F. ) ;
#24 = CIRCLE ( 'NONE', #72, 16.83012701892220164 ) ;
#25 = EDGE_LOOP ( 'NONE', ( #104 ) ) ;
#26 = AXIS2_PLACEMENT_3D ( 'NONE', #127, #172, #156 ) ;
#27 = AXIS2_PLACEMENT_3D ( 'NONE', #109, #96, #30 ) ;
#28 =( LENGTH_UNIT ( ) NAMED_UNIT ( * ) SI_UNIT ( .MILLI., .METRE. ) );
#29 = CARTESIAN_POINT ( 'NONE',  ( 0.0000000000000000000, 0.0000000000000000000, 0.0000000000000000000 ) ) ;
#30 = DIRECTION ( 'NONE',  ( 0.0000000000000000000, 0.0000000000000000000, -1.000000000000000000 ) ) ;
#31 = FACE_OUTER_BOUND ( 'NONE', #139, .T. ) ;
#32 = CARTESIAN_POINT ( 'NONE',  ( 0.0000000000000000000, 36.00000000000000000, -16.00000000000000000 ) ) ;
#33 = CARTESIAN_POINT ( 'NONE',  ( 0.0000000000000000000, 2.500000000000000000, 0.0000000000000000000 ) ) ;
#34 = CARTESIAN_POINT ( 'NONE',  ( 0.0000000000000000000, 0.0000000000000000000, 0.0000000000000000000 ) ) ;
#35 =( GEOMETRIC_REPRESENTATION_CONTEXT ( 3 ) GLOBAL_UNCERTAINTY_ASSIGNED_CONTEXT ( ( #77 ) ) GLOBAL_UNIT_ASSIGNED_CONTEXT ( ( #44, #120, #131 ) ) REPRESENTATION_CONTEXT ( 'NONE', 'WORKASPACE' ) );
#36 = AXIS2_PLACEMENT_3D ( 'NONE', #8, #50, #7 ) ;
#37 = EDGE_LOOP ( 'NONE', ( #11 ) ) ;
#38 = EDGE_LOOP ( 'NONE', ( #129 ) ) ;
#39 = CARTESIAN_POINT ( 'NONE',  ( 0.0000000000000000000, 0.0000000000000000000, 0.0000000000000000000 ) ) ;
#40 = MANIFOLD_SOLID_BREP ( 'Importiert1', #152 ) ;
#41 = CIRCLE ( 'NONE', #26, 13.00000000000000000 ) ;
#42 = APPLICATION_PROTOCOL_DEFINITION ( 'draft international standard', 'automotive_design', 1998, #69 ) ;
#43 = CIRCLE ( 'NONE', #90, 16.00000000000000000 ) ;
#44 =( LENGTH_UNIT ( ) NAMED_UNIT ( * ) SI_UNIT ( .MILLI., .METRE. ) );
#45 = FACE_BOUND ( 'NONE', #91, .T. ) ;
#46 = ADVANCED_FACE ( 'NONE', ( #147, #67 ), #146, .F. ) ;
#47 = PRODUCT_DEFINITION_CONTEXT ( 'detailed design', #69, 'design' ) ;
#48 = CARTESIAN_POINT ( 'NONE',  ( 0.0000000000000000000, 36.00000000000000000, -17.50000000000000000 ) ) ;
#49 = CARTESIAN_POINT ( 'NONE',  ( 0.0000000000000000000, 2.500000000000000000, 0.0000000000000000000 ) ) ;
#50 = DIRECTION ( 'NONE',  ( 0.0000000000000000000, -1.000000000000000000, 0.0000000000000000000 ) ) ;
#51 = DIRECTION ( 'NONE',  ( 0.0000000000000000000, 0.0000000000000000000, -1.000000000000000000 ) ) ;
#52 = EDGE_CURVE ( 'NONE', #124, #124, #63, .T. ) ;
#53 = EDGE_LOOP ( 'NONE', ( #118 ) ) ;
#54 = EDGE_LOOP ( 'NONE', ( #14 ) ) ;
#55 = EDGE_CURVE ( 'NONE', #144, #144, #92, .T. ) ;
#56 = APPLICATION_CONTEXT ( 'automotive_design' ) ;
#57 = SURFACE_STYLE_USAGE ( .BOTH. , #3 ) ;
#58 = DIRECTION ( 'NONE',  ( 1.000000000000000000, 0.0000000000000000000, 0.0000000000000000000 ) ) ;
#59 = ADVANCED_FACE ( 'NONE', ( #114, #126 ), #84, .T. ) ;
#60 = AXIS2_PLACEMENT_3D ( 'NONE', #29, #165, #108 ) ;
#61 =( LENGTH_UNIT ( ) NAMED_UNIT ( * ) SI_UNIT ( .MILLI., .METRE. ) );
#62 = FILL_AREA_STYLE ('',( #5 ) ) ;
#63 = CIRCLE ( 'NONE', #159, 17.50000000000000000 ) ;
#64 = DIRECTION ( 'NONE',  ( 0.0000000000000000000, 0.0000000000000000000, -1.000000000000000000 ) ) ;
#65 = PRESENTATION_STYLE_ASSIGNMENT (( #78 ) ) ;
#66 = VERTEX_POINT ( 'NONE', #32 ) ;
#67 = FACE_BOUND ( 'NONE', #25, .T. ) ;
#68 = DIRECTION ( 'NONE',  ( 0.0000000000000000000, -1.000000000000000000, 0.0000000000000000000 ) ) ;
#69 = APPLICATION_CONTEXT ( 'automotive_design' ) ;
#70 = EDGE_CURVE ( 'NONE', #98, #98, #41, .T. ) ;
#71 = AXIS2_PLACEMENT_3D ( 'NONE', #49, #6, #170 ) ;
#72 = AXIS2_PLACEMENT_3D ( 'NONE', #145, #132, #64 ) ;
#73 = EDGE_LOOP ( 'NONE', ( #150 ) ) ;
#74 = AXIS2_PLACEMENT_3D ( 'NONE', #20, #86, #82 ) ;
#75 = FACE_OUTER_BOUND ( 'NONE', #37, .T. ) ;
#76 = FILL_AREA_STYLE ('',( #142 ) ) ;
#77 = UNCERTAINTY_MEASURE_WITH_UNIT (LENGTH_MEASURE( 1.000000000000000082E-05 ), #44, 'distance_accuracy_value', 'NONE');
#78 = SURFACE_STYLE_USAGE ( .BOTH. , #79 ) ;
#79 = SURFACE_SIDE_STYLE ('',( #133 ) ) ;
#80 = AXIS2_PLACEMENT_3D ( 'NONE', #155, #136, #17 ) ;
#81 = CARTESIAN_POINT ( 'NONE',  ( 0.0000000000000000000, 0.0000000000000000000, -13.00000000000000000 ) ) ;
#82 = DIRECTION ( 'NONE',  ( 0.0000000000000000000, 0.0000000000000000000, 1.000000000000000000 ) ) ;
#83 = DIRECTION ( 'NONE',  ( 0.0000000000000000000, 0.0000000000000000000, -1.000000000000000000 ) ) ;
#84 = CYLINDRICAL_SURFACE ( 'NONE', #164, 17.50000000000000000 ) ;
#85 = PRESENTATION_LAYER_ASSIGNMENT (  '', '', ( #137 ) ) ;
#86 = DIRECTION ( 'NONE',  ( 0.0000000000000000000, 1.000000000000000000, 0.0000000000000000000 ) ) ;
#87 = ADVANCED_FACE ( 'NONE', ( #102, #101 ), #157, .F. ) ;
#88 = PRODUCT_DEFINITION_SHAPE ( 'NONE', 'NONE',  #158 ) ;
#89 = EDGE_LOOP ( 'NONE', ( #140 ) ) ;
#90 = AXIS2_PLACEMENT_3D ( 'NONE', #112, #15, #83 ) ;
#91 = EDGE_LOOP ( 'NONE', ( #23 ) ) ;
#92 = CIRCLE ( 'NONE', #4, 17.50000000000000000 ) ;
#93 =( NAMED_UNIT ( * ) SI_UNIT ( $, .STERADIAN. ) SOLID_ANGLE_UNIT ( ) );
#94 = CIRCLE ( 'NONE', #27, 13.00000000000000000 ) ;
#95 = CARTESIAN_POINT ( 'NONE',  ( 0.0000000000000000000, -1.376420155556339777E-15, -16.83012701892220164 ) ) ;
#96 = DIRECTION ( 'NONE',  ( 0.0000000000000000000, -1.000000000000000000, 0.0000000000000000000 ) ) ;
#97 = UNCERTAINTY_MEASURE_WITH_UNIT (LENGTH_MEASURE( 1.000000000000000082E-05 ), #28, 'distance_accuracy_value', 'NONE');
#98 = VERTEX_POINT ( 'NONE', #81 ) ;
#99 = ADVANCED_FACE ( 'NONE', ( #45, #154 ), #16, .T. ) ;
#100 = CARTESIAN_POINT ( 'NONE',  ( 0.0000000000000000000, 33.00000000000000000, -13.00000000000000000 ) ) ;
#101 = FACE_OUTER_BOUND ( 'NONE', #89, .T. ) ;
#102 = FACE_BOUND ( 'NONE', #73, .T. ) ;
#103 = ORIENTED_EDGE ( 'NONE', *, *, #21, .T. ) ;
#104 = ORIENTED_EDGE ( 'NONE', *, *, #123, .T. ) ;
#105 = STYLED_ITEM ( 'NONE', ( #119 ), #13 ) ;
#106 = DIRECTION ( 'NONE',  ( 0.0000000000000000000, 0.0000000000000000000, 1.000000000000000000 ) ) ;
#107 = SURFACE_STYLE_FILL_AREA ( #76 ) ;
#108 = DIRECTION ( 'NONE',  ( 0.0000000000000000000, 0.0000000000000000000, -1.000000000000000000 ) ) ;
#109 = CARTESIAN_POINT ( 'NONE',  ( 0.0000000000000000000, 33.00000000000000000, 0.0000000000000000000 ) ) ;
#110 = AXIS2_PLACEMENT_3D ( 'NONE', #39, #106, #58 ) ;
#111 = CARTESIAN_POINT ( 'NONE',  ( 0.0000000000000000000, 2.500000000000000000, -17.50000000000000000 ) ) ;
#112 = CARTESIAN_POINT ( 'NONE',  ( 0.0000000000000000000, 36.00000000000000000, 0.0000000000000000000 ) ) ;
#113 = DIRECTION ( 'NONE',  ( 0.0000000000000000000, 0.0000000000000000000, -1.000000000000000000 ) ) ;
#114 = FACE_OUTER_BOUND ( 'NONE', #54, .T. ) ;
#115 = ADVANCED_FACE ( 'NONE', ( #134, #31 ), #167, .T. ) ;
#116 = EDGE_LOOP ( 'NONE', ( #160 ) ) ;
#117 =( GEOMETRIC_REPRESENTATION_CONTEXT ( 3 ) GLOBAL_UNCERTAINTY_ASSIGNED_CONTEXT ( ( #97 ) ) GLOBAL_UNIT_ASSIGNED_CONTEXT ( ( #28, #141, #93 ) ) REPRESENTATION_CONTEXT ( 'NONE', 'WORKASPACE' ) );
#118 = ORIENTED_EDGE ( 'NONE', *, *, #123, .F. ) ;
#119 = PRESENTATION_STYLE_ASSIGNMENT (( #57 ) ) ;
#120 =( NAMED_UNIT ( * ) PLANE_ANGLE_UNIT ( ) SI_UNIT ( $, .RADIAN. ) );
#121 = PRESENTATION_LAYER_ASSIGNMENT (  '', '', ( #105 ) ) ;
#122 =( NAMED_UNIT ( * ) SI_UNIT ( $, .STERADIAN. ) SOLID_ANGLE_UNIT ( ) );
#123 = EDGE_CURVE ( 'NONE', #66, #66, #43, .T. ) ;
#124 = VERTEX_POINT ( 'NONE', #48 ) ;
#125 = VERTEX_POINT ( 'NONE', #95 ) ;
#126 = FACE_OUTER_BOUND ( 'NONE', #130, .T. ) ;
#127 = CARTESIAN_POINT ( 'NONE',  ( 0.0000000000000000000, 0.0000000000000000000, 0.0000000000000000000 ) ) ;
#128 = MECHANICAL_DESIGN_GEOMETRIC_PRESENTATION_REPRESENTATION (  '', ( #105 ), #117 ) ;
#129 = ORIENTED_EDGE ( 'NONE', *, *, #55, .T. ) ;
#130 = EDGE_LOOP ( 'NONE', ( #148 ) ) ;
#131 =( NAMED_UNIT ( * ) SI_UNIT ( $, .STERADIAN. ) SOLID_ANGLE_UNIT ( ) );
#132 = DIRECTION ( 'NONE',  ( 0.0000000000000000000, -1.000000000000000000, 0.0000000000000000000 ) ) ;
#133 = SURFACE_STYLE_FILL_AREA ( #62 ) ;
#134 = FACE_OUTER_BOUND ( 'NONE', #53, .T. ) ;
#135 = CARTESIAN_POINT ( 'NONE',  ( 0.0000000000000000000, 36.00000000000000000, 0.0000000000000000000 ) ) ;
#136 = DIRECTION ( 'NONE',  ( 0.0000000000000000000, -1.000000000000000000, 0.0000000000000000000 ) ) ;
#137 = STYLED_ITEM ( 'NONE', ( #65 ), #40 ) ;
#138 = DIRECTION ( 'NONE',  ( 0.0000000000000000000, 0.0000000000000000000, -1.000000000000000000 ) ) ;
#139 = EDGE_LOOP ( 'NONE', ( #103 ) ) ;
#140 = ORIENTED_EDGE ( 'NONE', *, *, #166, .T. ) ;
#141 =( NAMED_UNIT ( * ) PLANE_ANGLE_UNIT ( ) SI_UNIT ( $, .RADIAN. ) );
#142 = FILL_AREA_STYLE_COLOUR ( '', #10 ) ;
#143 = UNCERTAINTY_MEASURE_WITH_UNIT (LENGTH_MEASURE( 1.000000000000000082E-05 ), #61, 'distance_accuracy_value', 'NONE');
#144 = VERTEX_POINT ( 'NONE', #111 ) ;
#145 = CARTESIAN_POINT ( 'NONE',  ( 0.0000000000000000000, -1.376420155556339777E-15, 0.0000000000000000000 ) ) ;
#146 = PLANE ( 'NONE',  #36 ) ;
#147 = FACE_OUTER_BOUND ( 'NONE', #116, .T. ) ;
#148 = ORIENTED_EDGE ( 'NONE', *, *, #52, .T. ) ;
#149 = PRODUCT_DEFINITION_FORMATION_WITH_SPECIFIED_SOURCE ( 'ANY', '', #22, .NOT_KNOWN. ) ;
#150 = ORIENTED_EDGE ( 'NONE', *, *, #70, .F. ) ;
#151 = SHAPE_DEFINITION_REPRESENTATION ( #88, #13 ) ;
#152 = CLOSED_SHELL ( 'NONE', ( #12, #87, #99, #59, #46, #115 ) ) ;
#153 =( NAMED_UNIT ( * ) PLANE_ANGLE_UNIT ( ) SI_UNIT ( $, .RADIAN. ) );
#154 = FACE_OUTER_BOUND ( 'NONE', #38, .T. ) ;
#155 = CARTESIAN_POINT ( 'NONE',  ( 0.0000000000000000000, 33.00000000000000000, 0.0000000000000000000 ) ) ;
#156 = DIRECTION ( 'NONE',  ( 0.0000000000000000000, 0.0000000000000000000, -1.000000000000000000 ) ) ;
#157 = PLANE ( 'NONE',  #74 ) ;
#158 = PRODUCT_DEFINITION ( 'UNKNOWN', '', #149, #47 ) ;
#159 = AXIS2_PLACEMENT_3D ( 'NONE', #135, #173, #138 ) ;
#160 = ORIENTED_EDGE ( 'NONE', *, *, #52, .F. ) ;
#161 = FACE_OUTER_BOUND ( 'NONE', #1, .T. ) ;
#162 = APPLICATION_PROTOCOL_DEFINITION ( 'draft international standard', 'automotive_design', 1998, #56 ) ;
#163 = PRODUCT_CONTEXT ( 'NONE', #56, 'mechanical' ) ;
#164 = AXIS2_PLACEMENT_3D ( 'NONE', #34, #68, #113 ) ;
#165 = DIRECTION ( 'NONE',  ( 0.0000000000000000000, -1.000000000000000000, 0.0000000000000000000 ) ) ;
#166 = EDGE_CURVE ( 'NONE', #125, #125, #24, .T. ) ;
#167 = TOROIDAL_SURFACE ( 'NONE', #80, 16.00000000000000000, 3.000000000000000000 ) ;
#168 = CYLINDRICAL_SURFACE ( 'NONE', #60, 13.00000000000000000 ) ;
#169 = PRODUCT_RELATED_PRODUCT_CATEGORY ( 'part', '', ( #22 ) ) ;
#170 = DIRECTION ( 'NONE',  ( 0.0000000000000000000, 0.0000000000000000000, 1.000000000000000000 ) ) ;
#171 = VERTEX_POINT ( 'NONE', #100 ) ;
#172 = DIRECTION ( 'NONE',  ( 0.0000000000000000000, -1.000000000000000000, 0.0000000000000000000 ) ) ;
#173 = DIRECTION ( 'NONE',  ( 0.0000000000000000000, -1.000000000000000000, 0.0000000000000000000 ) ) ;
#174 = MECHANICAL_DESIGN_GEOMETRIC_PRESENTATION_REPRESENTATION (  '', ( #137 ), #9 ) ;
ENDSEC;
END-ISO-10303-21;
