ISO-10303-21;
HEADER;
FILE_DESCRIPTION (( 'STEP AP214' ),
    '1' );
FILE_NAME ('STARK_809 128.STEP',
    '2017-11-13T09:26:55',
    ( '' ),
    ( '' ),
    'SwSTEP 2.0',
    'SolidWorks 2017',
    '' );
FILE_SCHEMA (( 'AUTOMOTIVE_DESIGN' ));
ENDSEC;

DATA;
#1 = FACE_BOUND ( 'NONE', #138, .T. ) ;
#2 = DIRECTION ( 'NONE',  ( 0.0000000000000000000, 1.000000000000000000, 0.0000000000000000000 ) ) ;
#3 = FILL_AREA_STYLE ('',( #145 ) ) ;
#4 = CYLINDRICAL_SURFACE ( 'NONE', #85, 12.40000000000000000 ) ;
#5 = DIRECTION ( 'NONE',  ( 0.0000000000000000000, 1.000000000000000000, 0.0000000000000000000 ) ) ;
#6 = ADVANCED_FACE ( 'NONE', ( #238 ), #127, .F. ) ;
#7 = AXIS2_PLACEMENT_3D ( 'NONE', #160, #82, #25 ) ;
#8 = EDGE_LOOP ( 'NONE', ( #258 ) ) ;
#9 = EDGE_CURVE ( 'NONE', #250, #250, #204, .T. ) ;
#10 = FACE_BOUND ( 'NONE', #183, .T. ) ;
#11 = EDGE_LOOP ( 'NONE', ( #248 ) ) ;
#12 = AXIS2_PLACEMENT_3D ( 'NONE', #176, #149, #74 ) ;
#13 = CONICAL_SURFACE ( 'NONE', #292, 2.050000000000000300, 0.7853981633974547200 ) ;
#14 = EDGE_CURVE ( 'NONE', #179, #179, #117, .T. ) ;
#15 = FACE_OUTER_BOUND ( 'NONE', #303, .T. ) ;
#16 = DIRECTION ( 'NONE',  ( 0.0000000000000000000, -1.000000000000000000, 0.0000000000000000000 ) ) ;
#17 = AXIS2_PLACEMENT_3D ( 'NONE', #244, #243, #242 ) ;
#18 = DIRECTION ( 'NONE',  ( 0.0000000000000000000, 0.0000000000000000000, -1.000000000000000000 ) ) ;
#19 = ORIENTED_EDGE ( 'NONE', *, *, #14, .T. ) ;
#20 = SURFACE_SIDE_STYLE ('',( #23 ) ) ;
#21 = APPLICATION_PROTOCOL_DEFINITION ( 'draft international standard', 'automotive_design', 1998, #120 ) ;
#22 = DIRECTION ( 'NONE',  ( 0.0000000000000000000, 0.0000000000000000000, 1.000000000000000000 ) ) ;
#23 = SURFACE_STYLE_FILL_AREA ( #194 ) ;
#24 = ADVANCED_FACE ( 'NONE', ( #213, #267 ), #121, .F. ) ;
#25 = DIRECTION ( 'NONE',  ( 0.0000000000000000000, 0.0000000000000000000, -1.000000000000000000 ) ) ;
#26 = DIRECTION ( 'NONE',  ( 0.0000000000000000000, 0.0000000000000000000, -1.000000000000000000 ) ) ;
#27 = CARTESIAN_POINT ( 'NONE',  ( -9.001713060390770200, 14.60000000000000000, -0.5999703757453290800 ) ) ;
#28 = AXIS2_PLACEMENT_3D ( 'NONE', #227, #251, #78 ) ;
#29 = EDGE_LOOP ( 'NONE', ( #35 ) ) ;
#30 = CARTESIAN_POINT ( 'NONE',  ( 9.211590896445189400, 14.90000000000000000, 0.0000000000000000000 ) ) ;
#31 = CIRCLE ( 'NONE', #79, 2.050000000000000300 ) ;
#32 = AXIS2_PLACEMENT_3D ( 'NONE', #252, #100, #54 ) ;
#33 = DIRECTION ( 'NONE',  ( 0.0000000000000000000, 0.0000000000000000000, 1.000000000000000000 ) ) ;
#34 = ADVANCED_FACE ( 'NONE', ( #10, #73 ), #257, .T. ) ;
#35 = ORIENTED_EDGE ( 'NONE', *, *, #166, .T. ) ;
#36 = ORIENTED_EDGE ( 'NONE', *, *, #287, .T. ) ;
#37 = CYLINDRICAL_SURFACE ( 'NONE', #112, 2.050000000000000300 ) ;
#38 =( LENGTH_UNIT ( ) NAMED_UNIT ( * ) SI_UNIT ( .MILLI., .METRE. ) );
#39 = FACE_OUTER_BOUND ( 'NONE', #319, .T. ) ;
#40 = SURFACE_STYLE_USAGE ( .BOTH. , #20 ) ;
#41 = ORIENTED_EDGE ( 'NONE', *, *, #166, .F. ) ;
#42 = AXIS2_PLACEMENT_3D ( 'NONE', #289, #16, #18 ) ;
#43 = DIRECTION ( 'NONE',  ( 0.0000000000000000000, 0.0000000000000000000, 1.000000000000000000 ) ) ;
#44 = EDGE_LOOP ( 'NONE', ( #261 ) ) ;
#45 = EDGE_LOOP ( 'NONE', ( #75 ) ) ;
#46 = FACE_OUTER_BOUND ( 'NONE', #106, .T. ) ;
#47 = SHAPE_DEFINITION_REPRESENTATION ( #211, #61 ) ;
#48 = ADVANCED_FACE ( 'NONE', ( #101, #137 ), #316, .F. ) ;
#49 = VERTEX_POINT ( 'NONE', #174 ) ;
#50 = CARTESIAN_POINT ( 'NONE',  ( 9.211590896445189400, 14.60000000000000000, 0.0000000000000000000 ) ) ;
#51 = STYLED_ITEM ( 'NONE', ( #187 ), #312 ) ;
#52 = DIRECTION ( 'NONE',  ( -0.0000000000000000000, 1.000000000000000000, -0.0000000000000000000 ) ) ;
#53 = ORIENTED_EDGE ( 'NONE', *, *, #281, .F. ) ;
#54 = DIRECTION ( 'NONE',  ( 0.0000000000000000000, 0.0000000000000000000, -1.000000000000000000 ) ) ;
#55 = ORIENTED_EDGE ( 'NONE', *, *, #9, .T. ) ;
#56 = ORIENTED_EDGE ( 'NONE', *, *, #315, .F. ) ;
#57 = ADVANCED_FACE ( 'NONE', ( #46, #199 ), #37, .F. ) ;
#58 = FACE_BOUND ( 'NONE', #231, .T. ) ;
#59 = EDGE_LOOP ( 'NONE', ( #41 ) ) ;
#60 = FACE_BOUND ( 'NONE', #196, .T. ) ;
#61 = ADVANCED_BREP_SHAPE_REPRESENTATION ( 'STARK_809 128', ( #312, #114 ), #311 ) ;
#62 = AXIS2_PLACEMENT_3D ( 'NONE', #265, #169, #195 ) ;
#63 = ORIENTED_EDGE ( 'NONE', *, *, #281, .T. ) ;
#64 = ORIENTED_EDGE ( 'NONE', *, *, #108, .F. ) ;
#65 = FACE_OUTER_BOUND ( 'NONE', #77, .T. ) ;
#66 = EDGE_LOOP ( 'NONE', ( #253 ) ) ;
#67 = DIRECTION ( 'NONE',  ( -0.0000000000000000000, -1.000000000000000000, -0.0000000000000000000 ) ) ;
#68 = VERTEX_POINT ( 'NONE', #334 ) ;
#69 = AXIS2_PLACEMENT_3D ( 'NONE', #280, #122, #278 ) ;
#70 = SURFACE_SIDE_STYLE ('',( #193 ) ) ;
#71 = CARTESIAN_POINT ( 'NONE',  ( 0.0000000000000000000, 0.0000000000000000000, 0.0000000000000000000 ) ) ;
#72 = ORIENTED_EDGE ( 'NONE', *, *, #9, .F. ) ;
#73 = FACE_OUTER_BOUND ( 'NONE', #11, .T. ) ;
#74 = DIRECTION ( 'NONE',  ( 0.0000000000000000000, 0.0000000000000000000, 1.000000000000000000 ) ) ;
#75 = ORIENTED_EDGE ( 'NONE', *, *, #185, .T. ) ;
#76 = CARTESIAN_POINT ( 'NONE',  ( 0.0000000000000000000, 13.70000000000000100, 0.0000000000000000000 ) ) ;
#77 = EDGE_LOOP ( 'NONE', ( #330 ) ) ;
#78 = DIRECTION ( 'NONE',  ( 0.0000000000000000000, 0.0000000000000000000, 1.000000000000000000 ) ) ;
#79 = AXIS2_PLACEMENT_3D ( 'NONE', #260, #285, #320 ) ;
#80 = CARTESIAN_POINT ( 'NONE',  ( -9.001713060390770200, 14.90000000000000000, -0.5999703757453290800 ) ) ;
#81 = CIRCLE ( 'NONE', #218, 12.10000000000000000 ) ;
#82 = DIRECTION ( 'NONE',  ( 0.0000000000000000000, -1.000000000000000000, 0.0000000000000000000 ) ) ;
#83 = FACE_OUTER_BOUND ( 'NONE', #165, .T. ) ;
#84 = VERTEX_POINT ( 'NONE', #223 ) ;
#85 = AXIS2_PLACEMENT_3D ( 'NONE', #71, #113, #245 ) ;
#86 = DIRECTION ( 'NONE',  ( 0.0000000000000000000, 0.0000000000000000000, 1.000000000000000000 ) ) ;
#87 = VERTEX_POINT ( 'NONE', #300 ) ;
#88 = AXIS2_PLACEMENT_3D ( 'NONE', #115, #111, #297 ) ;
#89 = ORIENTED_EDGE ( 'NONE', *, *, #189, .F. ) ;
#90 =( NAMED_UNIT ( * ) SI_UNIT ( $, .STERADIAN. ) SOLID_ANGLE_UNIT ( ) );
#91 = DIRECTION ( 'NONE',  ( 0.0000000000000000000, 1.000000000000000000, 0.0000000000000000000 ) ) ;
#92 = CIRCLE ( 'NONE', #133, 6.450000000000000200 ) ;
#93 = CARTESIAN_POINT ( 'NONE',  ( 9.211590896445189400, 12.90000000000000000, 0.0000000000000000000 ) ) ;
#94 = VERTEX_POINT ( 'NONE', #148 ) ;
#95 = AXIS2_PLACEMENT_3D ( 'NONE', #304, #91, #273 ) ;
#96 = DIRECTION ( 'NONE',  ( 0.0000000000000000000, -1.000000000000000000, 0.0000000000000000000 ) ) ;
#97 = PRODUCT_DEFINITION ( 'UNKNOWN', '', #134, #282 ) ;
#98 = ORIENTED_EDGE ( 'NONE', *, *, #287, .F. ) ;
#99 = EDGE_LOOP ( 'NONE', ( #53 ) ) ;
#100 = DIRECTION ( 'NONE',  ( -0.0000000000000000000, 1.000000000000000000, -0.0000000000000000000 ) ) ;
#101 = FACE_OUTER_BOUND ( 'NONE', #99, .T. ) ;
#102 = COLOUR_RGB ( '',0.7490196078431372600, 0.7490196078431372600, 0.7490196078431372600 ) ;
#103 = EDGE_LOOP ( 'NONE', ( #55 ) ) ;
#104 =( GEOMETRIC_REPRESENTATION_CONTEXT ( 3 ) GLOBAL_UNCERTAINTY_ASSIGNED_CONTEXT ( ( #246 ) ) GLOBAL_UNIT_ASSIGNED_CONTEXT ( ( #38, #141, #222 ) ) REPRESENTATION_CONTEXT ( 'NONE', 'WORKASPACE' ) );
#105 = EDGE_LOOP ( 'NONE', ( #36 ) ) ;
#106 = EDGE_LOOP ( 'NONE', ( #255 ) ) ;
#107 = CYLINDRICAL_SURFACE ( 'NONE', #42, 5.250000000000000000 ) ;
#108 = EDGE_CURVE ( 'NONE', #202, #202, #239, .T. ) ;
#109 = VERTEX_POINT ( 'NONE', #116 ) ;
#110 = PLANE ( 'NONE',  #62 ) ;
#111 = DIRECTION ( 'NONE',  ( 0.0000000000000000000, -1.000000000000000000, 0.0000000000000000000 ) ) ;
#112 = AXIS2_PLACEMENT_3D ( 'NONE', #30, #5, #157 ) ;
#113 = DIRECTION ( 'NONE',  ( 0.0000000000000000000, -1.000000000000000000, 0.0000000000000000000 ) ) ;
#114 = AXIS2_PLACEMENT_3D ( 'NONE', #217, #43, #198 ) ;
#115 = CARTESIAN_POINT ( 'NONE',  ( 0.0000000000000000000, 1.200000000000000000, 0.0000000000000000000 ) ) ;
#116 = CARTESIAN_POINT ( 'NONE',  ( 0.0000000000000000000, 0.5000000000000000000, 12.40000000000000000 ) ) ;
#117 = CIRCLE ( 'NONE', #140, 12.40000000000000000 ) ;
#118 = CARTESIAN_POINT ( 'NONE',  ( 0.0000000000000000000, -4.378112306951789700E-016, 0.0000000000000000000 ) ) ;
#119 = CARTESIAN_POINT ( 'NONE',  ( 9.211590896445189400, 14.60000000000000000, -2.050000000000000300 ) ) ;
#120 = APPLICATION_CONTEXT ( 'automotive_design' ) ;
#121 = CONICAL_SURFACE ( 'NONE', #28, 6.450000000000000200, 0.7853981633974469500 ) ;
#122 = DIRECTION ( 'NONE',  ( 0.0000000000000000000, 1.000000000000000000, 0.0000000000000000000 ) ) ;
#123 = VERTEX_POINT ( 'NONE', #175 ) ;
#124 = ORIENTED_EDGE ( 'NONE', *, *, #158, .T. ) ;
#125 = AXIS2_PLACEMENT_3D ( 'NONE', #118, #2, #22 ) ;
#126 = DIRECTION ( 'NONE',  ( 0.0000000000000000000, 0.0000000000000000000, -1.000000000000000000 ) ) ;
#127 = CONICAL_SURFACE ( 'NONE', #236, 2.050000000000000300, 1.029744258676655900 ) ;
#128 = DIRECTION ( 'NONE',  ( 0.0000000000000000000, -1.000000000000000000, 0.0000000000000000000 ) ) ;
#129 = FACE_OUTER_BOUND ( 'NONE', #45, .T. ) ;
#130 = ORIENTED_EDGE ( 'NONE', *, *, #314, .F. ) ;
#131 = CONICAL_SURFACE ( 'NONE', #125, 11.90000000000000000, 0.7853981633974461700 ) ;
#132 =( NAMED_UNIT ( * ) SI_UNIT ( $, .STERADIAN. ) SOLID_ANGLE_UNIT ( ) );
#133 = AXIS2_PLACEMENT_3D ( 'NONE', #152, #96, #26 ) ;
#134 = PRODUCT_DEFINITION_FORMATION_WITH_SPECIFIED_SOURCE ( 'ANY', '', #240, .NOT_KNOWN. ) ;
#135 = ADVANCED_FACE ( 'NONE', ( #167 ), #290, .F. ) ;
#136 = ORIENTED_EDGE ( 'NONE', *, *, #275, .F. ) ;
#137 = FACE_BOUND ( 'NONE', #181, .T. ) ;
#138 = EDGE_LOOP ( 'NONE', ( #63 ) ) ;
#139 = FACE_BOUND ( 'NONE', #8, .T. ) ;
#140 = AXIS2_PLACEMENT_3D ( 'NONE', #182, #151, #126 ) ;
#141 =( NAMED_UNIT ( * ) PLANE_ANGLE_UNIT ( ) SI_UNIT ( $, .RADIAN. ) );
#142 = DIRECTION ( 'NONE',  ( 0.0000000000000000000, 1.000000000000000000, 0.0000000000000000000 ) ) ;
#143 = APPLICATION_CONTEXT ( 'automotive_design' ) ;
#144 =( NAMED_UNIT ( * ) PLANE_ANGLE_UNIT ( ) SI_UNIT ( $, .RADIAN. ) );
#145 = FILL_AREA_STYLE_COLOUR ( '', #201 ) ;
#146 = CARTESIAN_POINT ( 'NONE',  ( 9.211590896445189400, 14.90000000000000000, -2.350000000000000100 ) ) ;
#147 = CIRCLE ( 'NONE', #7, 2.350000000000000100 ) ;
#148 = CARTESIAN_POINT ( 'NONE',  ( 0.0000000000000000000, -4.378112306951789700E-016, 11.90000000000000000 ) ) ;
#149 = DIRECTION ( 'NONE',  ( -0.0000000000000000000, -1.000000000000000000, -0.0000000000000000000 ) ) ;
#150 = SURFACE_STYLE_USAGE ( .BOTH. , #70 ) ;
#151 = DIRECTION ( 'NONE',  ( 0.0000000000000000000, -1.000000000000000000, 0.0000000000000000000 ) ) ;
#152 = CARTESIAN_POINT ( 'NONE',  ( 0.0000000000000000000, 14.90000000000000000, 0.0000000000000000000 ) ) ;
#153 = ADVANCED_FACE ( 'NONE', ( #305, #234 ), #13, .F. ) ;
#154 = EDGE_LOOP ( 'NONE', ( #310 ) ) ;
#155 = DIRECTION ( 'NONE',  ( 0.0000000000000000000, 1.000000000000000000, 0.0000000000000000000 ) ) ;
#156 = PRODUCT_RELATED_PRODUCT_CATEGORY ( 'part', '', ( #240 ) ) ;
#157 = DIRECTION ( 'NONE',  ( 0.0000000000000000000, 0.0000000000000000000, 1.000000000000000000 ) ) ;
#158 = EDGE_CURVE ( 'NONE', #68, #68, #92, .T. ) ;
#159 = UNCERTAINTY_MEASURE_WITH_UNIT (LENGTH_MEASURE( 1.000000000000000100E-005 ), #298, 'distance_accuracy_value', 'NONE');
#160 = CARTESIAN_POINT ( 'NONE',  ( -9.001713060390770200, 14.90000000000000000, -0.5999703757453290800 ) ) ;
#161 = CIRCLE ( 'NONE', #188, 2.050000000000000300 ) ;
#162 = ADVANCED_FACE ( 'NONE', ( #321, #191 ), #225, .F. ) ;
#163 = FACE_BOUND ( 'NONE', #154, .T. ) ;
#164 = VERTEX_POINT ( 'NONE', #146 ) ;
#165 = EDGE_LOOP ( 'NONE', ( #19 ) ) ;
#166 = EDGE_CURVE ( 'NONE', #84, #84, #147, .T. ) ;
#167 = FACE_OUTER_BOUND ( 'NONE', #66, .T. ) ;
#168 = VERTEX_POINT ( 'NONE', #302 ) ;
#169 = DIRECTION ( 'NONE',  ( 0.0000000000000000000, -1.000000000000000000, 0.0000000000000000000 ) ) ;
#170 = AXIS2_PLACEMENT_3D ( 'NONE', #215, #241, #33 ) ;
#171 = DIRECTION ( 'NONE',  ( 0.0000000000000000000, 0.0000000000000000000, -1.000000000000000000 ) ) ;
#172 = EDGE_CURVE ( 'NONE', #123, #123, #31, .T. ) ;
#173 = APPLICATION_PROTOCOL_DEFINITION ( 'draft international standard', 'automotive_design', 1998, #143 ) ;
#174 = CARTESIAN_POINT ( 'NONE',  ( 0.0000000000000000000, 1.200000000000000000, 5.250000000000000000 ) ) ;
#175 = CARTESIAN_POINT ( 'NONE',  ( 9.211590896445189400, 12.90000000000000000, 2.050000000000000300 ) ) ;
#176 = CARTESIAN_POINT ( 'NONE',  ( 0.0000000000000000000, 1.200000000000000000, 0.0000000000000000000 ) ) ;
#177 = VERTEX_POINT ( 'NONE', #332 ) ;
#178 = ADVANCED_FACE ( 'NONE', ( #163, #129 ), #254, .F. ) ;
#179 = VERTEX_POINT ( 'NONE', #197 ) ;
#180 = DIRECTION ( 'NONE',  ( 0.0000000000000000000, 0.0000000000000000000, 1.000000000000000000 ) ) ;
#181 = EDGE_LOOP ( 'NONE', ( #64 ) ) ;
#182 = CARTESIAN_POINT ( 'NONE',  ( 0.0000000000000000000, 14.60000000000000000, 0.0000000000000000000 ) ) ;
#183 = EDGE_LOOP ( 'NONE', ( #136 ) ) ;
#184 = EDGE_LOOP ( 'NONE', ( #279 ) ) ;
#185 = EDGE_CURVE ( 'NONE', #94, #94, #271, .T. ) ;
#186 = FACE_OUTER_BOUND ( 'NONE', #322, .T. ) ;
#187 = PRESENTATION_STYLE_ASSIGNMENT (( #40 ) ) ;
#188 = AXIS2_PLACEMENT_3D ( 'NONE', #216, #294, #171 ) ;
#189 = EDGE_CURVE ( 'NONE', #293, #293, #210, .T. ) ;
#190 = UNCERTAINTY_MEASURE_WITH_UNIT (LENGTH_MEASURE( 1.000000000000000100E-005 ), #274, 'distance_accuracy_value', 'NONE');
#191 = FACE_OUTER_BOUND ( 'NONE', #214, .T. ) ;
#192 = EDGE_LOOP ( 'NONE', ( #72 ) ) ;
#193 = SURFACE_STYLE_FILL_AREA ( #3 ) ;
#194 = FILL_AREA_STYLE ('',( #327 ) ) ;
#195 = DIRECTION ( 'NONE',  ( 0.0000000000000000000, 0.0000000000000000000, -1.000000000000000000 ) ) ;
#196 = EDGE_LOOP ( 'NONE', ( #130 ) ) ;
#197 = CARTESIAN_POINT ( 'NONE',  ( 0.0000000000000000000, 14.60000000000000000, -12.40000000000000000 ) ) ;
#198 = DIRECTION ( 'NONE',  ( 1.000000000000000000, 0.0000000000000000000, 0.0000000000000000000 ) ) ;
#199 = FACE_OUTER_BOUND ( 'NONE', #184, .T. ) ;
#200 = CARTESIAN_POINT ( 'NONE',  ( -9.001713060390770200, 12.90000000000000000, 1.450029624254671300 ) ) ;
#201 = COLOUR_RGB ( '',0.7490196078431372600, 0.7490196078431372600, 0.7490196078431372600 ) ;
#202 = VERTEX_POINT ( 'NONE', #119 ) ;
#203 = DIRECTION ( 'NONE',  ( 0.0000000000000000000, 0.0000000000000000000, 1.000000000000000000 ) ) ;
#204 = CIRCLE ( 'NONE', #249, 5.250000000000000000 ) ;
#205 = AXIS2_PLACEMENT_3D ( 'NONE', #50, #155, #180 ) ;
#206 = ORIENTED_EDGE ( 'NONE', *, *, #275, .T. ) ;
#207 = STYLED_ITEM ( 'NONE', ( #263 ), #61 ) ;
#208 = DIRECTION ( 'NONE',  ( 0.0000000000000000000, 1.000000000000000000, 0.0000000000000000000 ) ) ;
#209 = EDGE_CURVE ( 'NONE', #109, #109, #262, .T. ) ;
#210 = CIRCLE ( 'NONE', #328, 2.050000000000000300 ) ;
#211 = PRODUCT_DEFINITION_SHAPE ( 'NONE', 'NONE',  #97 ) ;
#212 = CIRCLE ( 'NONE', #12, 5.250000000000000000 ) ;
#213 = FACE_BOUND ( 'NONE', #192, .T. ) ;
#214 = EDGE_LOOP ( 'NONE', ( #89 ) ) ;
#215 = CARTESIAN_POINT ( 'NONE',  ( -5.250000000000000000, -4.378112306951789700E-016, 0.0000000000000000000 ) ) ;
#216 = CARTESIAN_POINT ( 'NONE',  ( -9.001713060390770200, 14.60000000000000000, -0.5999703757453290800 ) ) ;
#217 = CARTESIAN_POINT ( 'NONE',  ( 0.0000000000000000000, 0.0000000000000000000, 0.0000000000000000000 ) ) ;
#218 = AXIS2_PLACEMENT_3D ( 'NONE', #291, #326, #329 ) ;
#219 = CARTESIAN_POINT ( 'NONE',  ( -9.001713060390770200, 12.90000000000000000, -0.5999703757453290800 ) ) ;
#220 = MECHANICAL_DESIGN_GEOMETRIC_PRESENTATION_REPRESENTATION (  '', ( #207 ), #331 ) ;
#221 = PRODUCT_CONTEXT ( 'NONE', #120, 'mechanical' ) ;
#222 =( NAMED_UNIT ( * ) SI_UNIT ( $, .STERADIAN. ) SOLID_ANGLE_UNIT ( ) );
#223 = CARTESIAN_POINT ( 'NONE',  ( -9.001713060390770200, 14.90000000000000000, -2.949970375745329100 ) ) ;
#224 = CIRCLE ( 'NONE', #95, 6.450000000000000200 ) ;
#225 = CYLINDRICAL_SURFACE ( 'NONE', #318, 2.050000000000000300 ) ;
#226 = ADVANCED_FACE ( 'NONE', ( #247, #65 ), #107, .F. ) ;
#227 = CARTESIAN_POINT ( 'NONE',  ( 0.0000000000000000000, 14.90000000000000000, 0.0000000000000000000 ) ) ;
#228 = DIRECTION ( 'NONE',  ( 0.0000000000000000000, 1.000000000000000000, 0.0000000000000000000 ) ) ;
#229 = ADVANCED_FACE ( 'NONE', ( #1, #313, #58, #186 ), #110, .F. ) ;
#230 = DIRECTION ( 'NONE',  ( 0.0000000000000000000, 1.000000000000000000, 0.0000000000000000000 ) ) ;
#231 = EDGE_LOOP ( 'NONE', ( #124 ) ) ;
#232 = DIRECTION ( 'NONE',  ( 0.0000000000000000000, 0.0000000000000000000, -1.000000000000000000 ) ) ;
#233 = CLOSED_SHELL ( 'NONE', ( #226, #178, #276, #229, #317, #34, #24, #306, #6, #57, #135, #162, #48, #153 ) ) ;
#234 = FACE_BOUND ( 'NONE', #272, .T. ) ;
#235 = AXIS2_PLACEMENT_3D ( 'NONE', #324, #296, #266 ) ;
#236 = AXIS2_PLACEMENT_3D ( 'NONE', #93, #208, #203 ) ;
#237 = EDGE_LOOP ( 'NONE', ( #333 ) ) ;
#238 = FACE_OUTER_BOUND ( 'NONE', #259, .T. ) ;
#239 = CIRCLE ( 'NONE', #32, 2.050000000000000300 ) ;
#240 = PRODUCT ( 'STARK_809 128', 'STARK_809 128', '', ( #221 ) ) ;
#241 = DIRECTION ( 'NONE',  ( 0.0000000000000000000, 1.000000000000000000, 0.0000000000000000000 ) ) ;
#242 = DIRECTION ( 'NONE',  ( 0.0000000000000000000, 0.0000000000000000000, 1.000000000000000000 ) ) ;
#243 = DIRECTION ( 'NONE',  ( 0.0000000000000000000, 1.000000000000000000, 0.0000000000000000000 ) ) ;
#244 = CARTESIAN_POINT ( 'NONE',  ( 0.0000000000000000000, 0.5000000000000000000, 0.0000000000000000000 ) ) ;
#245 = DIRECTION ( 'NONE',  ( 0.0000000000000000000, 0.0000000000000000000, -1.000000000000000000 ) ) ;
#246 = UNCERTAINTY_MEASURE_WITH_UNIT (LENGTH_MEASURE( 1.000000000000000100E-005 ), #38, 'distance_accuracy_value', 'NONE');
#247 = FACE_OUTER_BOUND ( 'NONE', #103, .T. ) ;
#248 = ORIENTED_EDGE ( 'NONE', *, *, #14, .F. ) ;
#249 = AXIS2_PLACEMENT_3D ( 'NONE', #76, #52, #232 ) ;
#250 = VERTEX_POINT ( 'NONE', #301 ) ;
#251 = DIRECTION ( 'NONE',  ( 0.0000000000000000000, 1.000000000000000000, 0.0000000000000000000 ) ) ;
#252 = CARTESIAN_POINT ( 'NONE',  ( 9.211590896445189400, 14.60000000000000000, 0.0000000000000000000 ) ) ;
#253 = ORIENTED_EDGE ( 'NONE', *, *, #189, .T. ) ;
#254 = PLANE ( 'NONE',  #170 ) ;
#255 = ORIENTED_EDGE ( 'NONE', *, *, #108, .T. ) ;
#256 = DIRECTION ( 'NONE',  ( 0.0000000000000000000, 0.0000000000000000000, -1.000000000000000000 ) ) ;
#257 = CONICAL_SURFACE ( 'NONE', #277, 12.40000000000000000, 0.7853981633974547200 ) ;
#258 = ORIENTED_EDGE ( 'NONE', *, *, #185, .F. ) ;
#259 = EDGE_LOOP ( 'NONE', ( #299 ) ) ;
#260 = CARTESIAN_POINT ( 'NONE',  ( 9.211590896445189400, 12.90000000000000000, 0.0000000000000000000 ) ) ;
#261 = ORIENTED_EDGE ( 'NONE', *, *, #158, .F. ) ;
#262 = CIRCLE ( 'NONE', #17, 12.40000000000000000 ) ;
#263 = PRESENTATION_STYLE_ASSIGNMENT (( #150 ) ) ;
#264 = FACE_OUTER_BOUND ( 'NONE', #237, .T. ) ;
#265 = CARTESIAN_POINT ( 'NONE',  ( -12.40000000000000000, 14.90000000000000000, 0.0000000000000000000 ) ) ;
#266 = DIRECTION ( 'NONE',  ( 0.0000000000000000000, 0.0000000000000000000, -1.000000000000000000 ) ) ;
#267 = FACE_OUTER_BOUND ( 'NONE', #44, .T. ) ;
#268 = PRESENTATION_LAYER_ASSIGNMENT (  '', '', ( #51 ) ) ;
#269 = ORIENTED_EDGE ( 'NONE', *, *, #209, .T. ) ;
#270 = CARTESIAN_POINT ( 'NONE',  ( 0.0000000000000000000, -4.378112306951789700E-016, 0.0000000000000000000 ) ) ;
#271 = CIRCLE ( 'NONE', #308, 11.90000000000000000 ) ;
#272 = EDGE_LOOP ( 'NONE', ( #98 ) ) ;
#273 = DIRECTION ( 'NONE',  ( 0.0000000000000000000, 0.0000000000000000000, 1.000000000000000000 ) ) ;
#274 =( LENGTH_UNIT ( ) NAMED_UNIT ( * ) SI_UNIT ( .MILLI., .METRE. ) );
#275 = EDGE_CURVE ( 'NONE', #177, #177, #81, .T. ) ;
#276 = ADVANCED_FACE ( 'NONE', ( #83, #39 ), #4, .T. ) ;
#277 = AXIS2_PLACEMENT_3D ( 'NONE', #309, #128, #256 ) ;
#278 = DIRECTION ( 'NONE',  ( 0.0000000000000000000, 0.0000000000000000000, 1.000000000000000000 ) ) ;
#279 = ORIENTED_EDGE ( 'NONE', *, *, #172, .F. ) ;
#280 = CARTESIAN_POINT ( 'NONE',  ( -9.001713060390770200, 12.90000000000000000, -0.5999703757453290800 ) ) ;
#281 = EDGE_CURVE ( 'NONE', #164, #164, #288, .T. ) ;
#282 = PRODUCT_DEFINITION_CONTEXT ( 'detailed design', #143, 'design' ) ;
#283 = DIRECTION ( 'NONE',  ( 0.0000000000000000000, 0.0000000000000000000, 1.000000000000000000 ) ) ;
#284 = MECHANICAL_DESIGN_GEOMETRIC_PRESENTATION_REPRESENTATION (  '', ( #51 ), #104 ) ;
#285 = DIRECTION ( 'NONE',  ( 0.0000000000000000000, 1.000000000000000000, 0.0000000000000000000 ) ) ;
#286 = PRESENTATION_LAYER_ASSIGNMENT (  '', '', ( #207 ) ) ;
#287 = EDGE_CURVE ( 'NONE', #87, #87, #161, .T. ) ;
#288 = CIRCLE ( 'NONE', #235, 2.350000000000000100 ) ;
#289 = CARTESIAN_POINT ( 'NONE',  ( 0.0000000000000000000, 0.0000000000000000000, 0.0000000000000000000 ) ) ;
#290 = CONICAL_SURFACE ( 'NONE', #69, 2.050000000000000300, 1.029744258676655900 ) ;
#291 = CARTESIAN_POINT ( 'NONE',  ( 0.0000000000000000000, 14.90000000000000000, 0.0000000000000000000 ) ) ;
#292 = AXIS2_PLACEMENT_3D ( 'NONE', #27, #228, #307 ) ;
#293 = VERTEX_POINT ( 'NONE', #200 ) ;
#294 = DIRECTION ( 'NONE',  ( -0.0000000000000000000, 1.000000000000000000, -0.0000000000000000000 ) ) ;
#295 =( NAMED_UNIT ( * ) PLANE_ANGLE_UNIT ( ) SI_UNIT ( $, .RADIAN. ) );
#296 = DIRECTION ( 'NONE',  ( 0.0000000000000000000, -1.000000000000000000, 0.0000000000000000000 ) ) ;
#297 = DIRECTION ( 'NONE',  ( 0.0000000000000000000, 0.0000000000000000000, -1.000000000000000000 ) ) ;
#298 =( LENGTH_UNIT ( ) NAMED_UNIT ( * ) SI_UNIT ( .MILLI., .METRE. ) );
#299 = ORIENTED_EDGE ( 'NONE', *, *, #172, .T. ) ;
#300 = CARTESIAN_POINT ( 'NONE',  ( -9.001713060390770200, 14.60000000000000000, -2.649970375745329200 ) ) ;
#301 = CARTESIAN_POINT ( 'NONE',  ( 0.0000000000000000000, 13.70000000000000100, -5.250000000000000000 ) ) ;
#302 = CARTESIAN_POINT ( 'NONE',  ( 0.0000000000000000000, -4.378112306951789700E-016, 6.450000000000000200 ) ) ;
#303 = EDGE_LOOP ( 'NONE', ( #56 ) ) ;
#304 = CARTESIAN_POINT ( 'NONE',  ( 0.0000000000000000000, -4.378112306951789700E-016, 0.0000000000000000000 ) ) ;
#305 = FACE_OUTER_BOUND ( 'NONE', #59, .T. ) ;
#306 = ADVANCED_FACE ( 'NONE', ( #15, #60 ), #325, .F. ) ;
#307 = DIRECTION ( 'NONE',  ( 0.0000000000000000000, 0.0000000000000000000, 1.000000000000000000 ) ) ;
#308 = AXIS2_PLACEMENT_3D ( 'NONE', #270, #67, #86 ) ;
#309 = CARTESIAN_POINT ( 'NONE',  ( 0.0000000000000000000, 14.60000000000000000, 0.0000000000000000000 ) ) ;
#310 = ORIENTED_EDGE ( 'NONE', *, *, #315, .T. ) ;
#311 =( GEOMETRIC_REPRESENTATION_CONTEXT ( 3 ) GLOBAL_UNCERTAINTY_ASSIGNED_CONTEXT ( ( #159 ) ) GLOBAL_UNIT_ASSIGNED_CONTEXT ( ( #298, #144, #132 ) ) REPRESENTATION_CONTEXT ( 'NONE', 'WORKASPACE' ) );
#312 = MANIFOLD_SOLID_BREP ( 'Importiert1', #233 ) ;
#313 = FACE_BOUND ( 'NONE', #29, .T. ) ;
#314 = EDGE_CURVE ( 'NONE', #49, #49, #212, .T. ) ;
#315 = EDGE_CURVE ( 'NONE', #168, #168, #224, .T. ) ;
#316 = CONICAL_SURFACE ( 'NONE', #205, 2.050000000000000300, 0.7853981633974547200 ) ;
#317 = ADVANCED_FACE ( 'NONE', ( #264, #139 ), #131, .T. ) ;
#318 = AXIS2_PLACEMENT_3D ( 'NONE', #80, #230, #283 ) ;
#319 = EDGE_LOOP ( 'NONE', ( #269 ) ) ;
#320 = DIRECTION ( 'NONE',  ( 0.0000000000000000000, 0.0000000000000000000, 1.000000000000000000 ) ) ;
#321 = FACE_OUTER_BOUND ( 'NONE', #105, .T. ) ;
#322 = EDGE_LOOP ( 'NONE', ( #206 ) ) ;
#323 = DIRECTION ( 'NONE',  ( 0.0000000000000000000, 0.0000000000000000000, 1.000000000000000000 ) ) ;
#324 = CARTESIAN_POINT ( 'NONE',  ( 9.211590896445189400, 14.90000000000000000, 0.0000000000000000000 ) ) ;
#325 = CONICAL_SURFACE ( 'NONE', #88, 5.250000000000000000, 0.7853981633974503900 ) ;
#326 = DIRECTION ( 'NONE',  ( -0.0000000000000000000, 1.000000000000000000, -0.0000000000000000000 ) ) ;
#327 = FILL_AREA_STYLE_COLOUR ( '', #102 ) ;
#328 = AXIS2_PLACEMENT_3D ( 'NONE', #219, #142, #323 ) ;
#329 = DIRECTION ( 'NONE',  ( 0.0000000000000000000, 0.0000000000000000000, -1.000000000000000000 ) ) ;
#330 = ORIENTED_EDGE ( 'NONE', *, *, #314, .T. ) ;
#331 =( GEOMETRIC_REPRESENTATION_CONTEXT ( 3 ) GLOBAL_UNCERTAINTY_ASSIGNED_CONTEXT ( ( #190 ) ) GLOBAL_UNIT_ASSIGNED_CONTEXT ( ( #274, #295, #90 ) ) REPRESENTATION_CONTEXT ( 'NONE', 'WORKASPACE' ) );
#332 = CARTESIAN_POINT ( 'NONE',  ( 0.0000000000000000000, 14.90000000000000000, -12.10000000000000000 ) ) ;
#333 = ORIENTED_EDGE ( 'NONE', *, *, #209, .F. ) ;
#334 = CARTESIAN_POINT ( 'NONE',  ( 0.0000000000000000000, 14.90000000000000000, -6.450000000000000200 ) ) ;
ENDSEC;
END-ISO-10303-21;
